News:


+ Vasco Rossi Forum |Vascoforever.it » Tutto Vasco Rossi » Album -Dvd » Spartiti-tablature-accordi
|-+ Jenny E' Pazza

Inserisci il nome utente, la password e la durata della sessione.


Autore Topic: Jenny E' Pazza  (Letto 8168 volte)

Pol

  • San Siro 03 Member

  • Offline
  • ******

  • 2614
  • Testo personale
    T'immagini..
Jenny E' Pazza
« il: Febbraio 11, 2010, 18:11:02 »

D                          G
Jenny non vuol piu' parlare
                      D
non vuol piu' giocare
             G
vorrebbe soltanto dormire
D                         G
Jenny non vuol piu' capire
              D
sbadiglia soltanto
                  G
non vuol piu' nemmeno mangiare
D
Jenny e' stanca
G
Jenny vuole dormire
D
Jenny e' stanca
G                    D G D G
Jenny vuole dormire

D G D G

D                         G
Jenny ha lasciato la gente
a guardarsi stupita
a cercar di capir cosa
Jenny non sente piu' niente
non sente le voci che il vento le porta
Jenny e' stanca
Jenny vuole dormire
Jenny e' stanca
G                     D
Jenny vuole dormire

D C Bm Bb A   ABC#

("arpeggino") A C Bm7 C Bb

D F#m G D (x2)

(solo) D F#m G D (x2)   D G D G

             D
Io che l'ho vista piangere
            G
di gioia e ridere
             D
che piu' di lei la vita
              G
credo mai nessuno amo'
            D
io non vi credo
             A
lasciatela stare
     G         D G D G
voi non potete

D G D G

D
Jenny non può piu' restare
portatela via
rovina il morale alla gente
Jenny sta bene
e' lontana...la curano
forse potrà anche guarire un giorno
Jenny e' pazza
c'e' chi dice anche questo
Jenny e' pazza
G                           D G D G                  
c'e' chi dice anche questo

D G D G

D                        G
Jenny ha pagato per tutti
ha pagato per noi
che restiamo a guardarla ora
Jenny e' soltanto un ricordo
qualcosa di amaro da spingere giu' in fondo
Jenny e' stanca
Jenny vuole dormire
Jenny e' stanca
Jenny vuole dormire
Jenny e' stanca
Jenny vuole dormire
« Ultima modifica: Febbraio 28, 2010, 13:04:15 da Pol »
La primavera è solo un dispetto..un richiamo perfetto..

Pol

  • San Siro 03 Member

  • Offline
  • ******

  • 2614
  • Testo personale
    T'immagini..
Re: Jenny E' Pazza
« Risposta #1 il: Febbraio 11, 2010, 18:18:44 »
Chi trova qualcosa di migliore, corregga pure! :)
La primavera è solo un dispetto..un richiamo perfetto..

ferra

  • Utente Storico
  • C'è Chi Dice No Tour Member

  • Offline
  • *****

  • 1155
Re: Jenny E' Pazza
« Risposta #2 il: Febbraio 12, 2010, 09:33:52 »
Provo a farla e vediamo... è già qlc avere una base!
EGOISTA CERTO... PERCHE' NO?

Pol

  • San Siro 03 Member

  • Offline
  • ******

  • 2614
  • Testo personale
    T'immagini..
Re: Jenny E' Pazza
« Risposta #3 il: Febbraio 27, 2010, 19:44:40 »
Penso di aver trovato (più o meno) il tab di tutto questo pezzo:


G                     D
Jenny vuole dormire

D C Bm Bb A   ABC#

("arpeggino") A C Bm7 C Bb

D F#m G D (x2)

(solo) D F#m G D (x2)   D G D G

             D
Io che l'ho vista piangere


Domani lo scrivo e lo posto! :ok:
L'unica cosa che non riesco ancora a capire bene è come fa la strofa (D e G)...come le arpeggia...
Ma lo troveremo! :ok:
La primavera è solo un dispetto..un richiamo perfetto..

Pol

  • San Siro 03 Member

  • Offline
  • ******

  • 2614
  • Testo personale
    T'immagini..
Re: Jenny E' Pazza
« Risposta #4 il: Febbraio 28, 2010, 13:02:02 »
Partiamo dal presupposto che NON sono un chitarrista!  :)
Questa versione di Tab, ovviamente, vuole essere un semplice spunto…
La canzone e le note sono in grassetto.
Come avrete potuto notare, prima ho messo il Tab delle note che saranno poi utilizzate nel pezzo di canzone.
Ho suddiviso,per praticità,la canzone in vari pezzi.

Qualcuno che sa suonare la chitarra (e arpeggiarla) provi per cortesia a eseguire i Tab che ho postato e li corregga!

Video:

----------------------------------------------------------------------------------------

        D               G

-------2------------7------
-----3--3---------8--8-----
----2----2-------7----7---
---0-----X------0------X---
---X-----X------X------X----
---X-----X------X------X----


D                          G
Jenny non vuol piu' parlare
                      D
non vuol piu' giocare
             G
vorrebbe soltanto dormire
D                         G
Jenny non vuol piu' capire
              D
sbadiglia soltanto
                  G
non vuol piu' nemmeno mangiare


----------------------------------------------------------------------------------------------

D* = giocare con il mignolo sull’ultima corda (tradotto con un 3-2)

         D             D*               G             G

-------2---------3-2-------------7----------7----
-----3--3------3—--3----------8--8-------8-8----
----2----2----2------2--------7----7-----7---7----
---0-----X---0-------X------0------X---0------X-------
---X-----X---X-------X------X------X---X------X----
---X-----X---X-------X------X------X---X------X---



D           D*
Jenny e' stanca
G            G
Jenny vuole dormire
D           D*
Jenny e' stanca
G                         G - D D* - G G - D D* - G G
Jenny vuole dormire


----------------------------------------------------------------------------------------------

         D               G

-------2------------7------
-----3--3---------8--8-----
----2----2-------7----7---
---0-----X------0------X---
---X-----X------X------X----
---X-----X------X------X----


D G D G

--------------------------------------------------------------------------------------------------
  
       D               G

-------2------------7------
-----3--3---------8--8-----
----2----2-------7----7---
---0-----X------0------X---
---X-----X------X------X----
---X-----X------X------X----


D                         G
Jenny ha lasciato la gente
                  D
a guardarsi stupita
               G
a cercar di capir cosa
D                           G
Jenny non sente piu' niente
                 D                          G
non sente le voci che il vento le porta


-----------------------------------------------------------------------------------------------

D* = giocare con il mignolo sull’ultima corda (tradotto con un 3-2)

         D             D*               G             G

-------2---------3-2-------------7----------7----
-----3--3------3—--3----------8--8-------8-8----
----2----2----2------2--------7----7-----7---7----
---0-----X---0-------X------0------X---0------X-------
---X-----X---X-------X------X------X---X------X----
---X-----X---X-------X------X------X---X------X---


D                           D*
Jenny e' stanca
G                          G
Jenny vuole dormire
D                   D*
Jenny e' stanca
G                          G  
Jenny vuole dormire


------------------------------------------------------------------------------------------------------


         D               D

-------2------------2------
-----3--3---------3--3-----
----2----2-------2----2---
---0-----X------0------X---
---X-----X------X------X----
---X-----X------X------X----


         C               C

-------2------------2------
-----3--3---------3--3-----
----2----2-------2----2---
---X-----X------X------X---
---3-----X------3------X----
---X-----X------X------X----


         Bm            Bm

-------2------------2------
-----3--3---------3--3-----
----0----0-------0----0---
---X-----X------X------X---
---2-----X------2------X----
---X-----X------X------X----


         Bb            Bb

-------2------------2------
-----3--3---------3--3-----
----0----0-------0----0---
---X-----X------X------X---
---1-----X------1------X----
---X-----X------X------X----


         A              A

-------0------------0------
-----2--2---------2--2-----
----2----2-------2----2---
---X-----X------X------X---
---0-----X------0------X----
---X-----X------X------X----

D D C C Bm Bm Bb Bb A A

------------------------------------------------------------------------------------------------


-------0---2----4---------
--------------------------
---------------------------
---------------------------
---------------------------
---------------------------

ABC#

---------------------------------------------------------------------------------------------------


--------------------------
---10----9----7---------- (x 4)
---------------------------
---------------------------
---------------------------
---------------------------


--------------------------
---8----7----5----------- (x 4)
---------------------------
---------------------------
---------------------------
---------------------------


--------------------------
---10----9----7---------- (x 4)
---------------------------
---------------------------
---------------------------
---------------------------


--------------------------
---8----7----5---------- (x 4)
---------------------------
---------------------------
---------------------------
---------------------------


--------------------------
---6----5----3---------- (x 6 o 7)
---------------------------
---------------------------
---------------------------
---------------------------

("arpeggino") A C Bm7 C Bb

--------------------------------------------------------------------------------------------------

                D              

-------------2--------------
---3--3------------3-------
-------------2---------------
---0--0------------0--------
----------------------------
----------------------------



             F#m
              
----------------2--------------
---2--2--2------------2-------
----------------2---------------
---4--4--4------------4--------
--------------------------------
--------------------------------



                G

------------------------------
---3--3-------5--3--5----------
-------------------------------
---5--5----------------------
---------------5--5--5-------------
--------------------------------


         D

-------2-----------------------
-------------------------------
-------2-----------------------
--------------------------------
--------------------------------
--------------------------------

D F#m G D (x2)

------------------------------------------------------------------------------------------------------

        D             G              D             G

---2--2--2----7--7--7----2--2--2----7--7--7---
---3--3--3----8--8--8----3--3--3----8--8--8---
---2--2--2----7--7--7----2--2--2----7--7--7---
---0--0--0----0--0--0----0--0--0----0--0--0---
---X--X--X----X--X--X----X--X--X----X--X--X---
---X--X--X----X--X--X----X--X--X----X--X--X---

D G D G

-----------------------------------------------------------------------------------------------------

   D        G       A

---2------3------0----
---3------3------2----
---2------0------2----
---0------0------2----
---X------2------0----
---X------3------0----



             D
Io che l'ho vista piangere
            G
di gioia e ridere
             D
che piu' di lei la vita
              G
credo mai nessuno amo'
            D
io non vi credo
             A
lasciatela stare
     G          
voi non potete


----------------------------------------------------------------------------------------------------

         D               G

-------2------------7------
-----3--3---------8--8-----
----2----2-------7----7---
---0-----X------0------X---
---X-----X------X------X----
---X-----X------X------X----


D G D G

-----------------------------------------------------------------------------------------------------

         D               G

-------2------------7------
-----3--3---------8--8-----
----2----2-------7----7---
---0-----X------0------X---
---X-----X------X------X----
---X-----X------X------X----


Jenny non può piu' restare
portatela via
rovina il morale alla gente
Jenny sta bene
e' lontana...la curano
forse potrà anche guarire un giorno


-----------------------------------------------------------------------------------------------------

D* = giocare con il mignolo sull’ultima corda (tradotto con un 3-2)

         D             D*               G             G

-------2---------3-2-------------7----------7----
-----3--3------3—--3----------8--8-------8-8----
----2----2----2------2--------7----7-----7---7----
---0-----X---0-------X------0------X---0------X-------
---X-----X---X-------X------X------X---X------X----
---X-----X---X-------X------X------X---X------X---


Jenny e' pazza
c'e' chi dice anche questo
Jenny e' pazza                  
c'e' chi dice anche questo


-----------------------------------------------------------------------------------------------------

         D               G

-------2------------7------
-----3--3---------8--8-----
----2----2-------7----7---
---0-----X------0------X---
---X-----X------X------X----
---X-----X------X------X----

Jenny ha pagato per tutti
ha pagato per noi
che restiamo a guardarla ora
Jenny e' soltanto un ricordo
qualcosa di amaro da spingere giu' in fondo


---------------------------------------------------------------------------------------------------

D* = giocare con il mignolo sull’ultima corda (tradotto con un 3-2)

         D             D*               G             G

-------2---------3-2-------------7----------7----
-----3--3------3—--3----------8--8-------8-8----
----2----2----2------2--------7----7-----7---7----
---0-----X---0-------X------0------X---0------X-------
---X-----X---X-------X------X------X---X------X----
---X-----X---X-------X------X------X---X------X---

Jenny e' stanca
Jenny vuole dormire
Jenny e' stanca
Jenny vuole dormire
Jenny e' stanca
Jenny vuole dormire


-------------------------------------------------------------------------------------------------------

« Ultima modifica: Febbraio 28, 2010, 13:03:48 da Pol »
La primavera è solo un dispetto..un richiamo perfetto..

antobe91

  • Visitatore
Re: Jenny E' Pazza
« Risposta #5 il: Febbraio 28, 2010, 14:42:44 »
Grande Pol!!!  :onorato:
È un vero piacere strimpellare questo pezzo!  ;)

Pol

  • San Siro 03 Member

  • Offline
  • ******

  • 2614
  • Testo personale
    T'immagini..
Re: Jenny E' Pazza
« Risposta #6 il: Marzo 01, 2010, 12:56:52 »
Grande Pol!!!  :onorato:
È un vero piacere strimpellare questo pezzo!  ;)

Grazie! :ok:
Ripeto...è solo una bozza...
Qualcuno davvero bravo dovrebbe prendersi la briga e correggere i punti sbagliati! :ok:
La primavera è solo un dispetto..un richiamo perfetto..

ferra

  • Utente Storico
  • C'è Chi Dice No Tour Member

  • Offline
  • *****

  • 1155
Re: Jenny E' Pazza
« Risposta #7 il: Marzo 10, 2010, 11:48:35 »
Appena possibile la provo!
EGOISTA CERTO... PERCHE' NO?

blasco1988

  • Utente Storico
  • Fronte Del Palco Member

  • Offline
  • *****

  • 12023
  • Testo personale
    Perchè tradire seeeee è una libidineeee
Re: Jenny E' Pazza
« Risposta #8 il: Febbraio 10, 2012, 23:49:21 »
Guardate come la interpreta bene Fabio Poli, è una versione molto semplice e vicina all'originale, nel mio piccolo mi emoziono quando la suono...e consiglio anche altri video di Poli, tipo Gabry, Senza Parole, Va bene  va bene così dove le spiega davvero bene
Trovi un cucciolo per strada, cosa fai?
Rew: ":ciauz:"

:rido:

 

WAP | RSS | XHTML
Theme by NW Updated by Diego Andrés
anything